ISO-10303-21;
HEADER;
FILE_DESCRIPTION (( 'STEP AP203' ),
    '1' );
FILE_NAME ('Triangular Battery.STEP',
    '2023-01-02T19:53:45',
    ( '' ),
    ( '' ),
    'SwSTEP 2.0',
    'SolidWorks 2019',
    '' );
FILE_SCHEMA (( 'CONFIG_CONTROL_DESIGN' ));
ENDSEC;

DATA;
#1 = CARTESIAN_POINT ( 'NONE',  ( -18.29999999697439250, -9.449999998487198738, 64.50000000000000000 ) ) ;
#2 = APPROVAL_ROLE ( '' ) ;
#3 = ADVANCED_FACE ( 'NONE', ( #256 ), #181, .T. ) ;
#4 = DIRECTION ( 'NONE',  ( -0.4999999999999998890, 0.8660254037844387076, 0.000000000000000000 ) ) ;
#5 = APPROVAL_PERSON_ORGANIZATION ( #112, #107, #53 ) ;
#6 = CIRCLE ( 'NONE', #286, 9.449999998487200514 ) ;
#7 = ORIENTED_EDGE ( 'NONE', *, *, #124, .F. ) ;
#8 = ORIENTED_EDGE ( 'NONE', *, *, #259, .F. ) ;
#9 = APPROVAL_ROLE ( '' ) ;
#10 = CLOSED_SHELL ( 'NONE', ( #223, #52, #3, #197, #161, #233, #297, #104, #321 ) ) ;
#11 = APPLICATION_CONTEXT ( 'configuration controlled 3d designs of mechanical parts and assemblies' ) ;
#12 = LINE ( 'NONE', #94, #277 ) ;
#13 = EDGE_CURVE ( 'NONE', #307, #206, #46, .T. ) ;
#14 = EDGE_CURVE ( 'NONE', #180, #307, #152, .T. ) ;
#15 = DIRECTION ( 'NONE',  ( 0.000000000000000000, 0.000000000000000000, 1.000000000000000000 ) ) ;
#16 = AXIS2_PLACEMENT_3D ( 'NONE', #40, #15, #196 ) ;
#17 = CARTESIAN_POINT ( 'NONE',  ( -0.9660599340343828390, 20.57326488587859359, -64.29999999999999716 ) ) ;
#18 = ORIENTED_EDGE ( 'NONE', *, *, #38, .F. ) ;
#19 = CARTESIAN_POINT ( 'NONE',  ( -1.735936837513476249E-15, -9.449999998487200514, -115.2046354664412178 ) ) ;
#20 = APPROVAL_PERSON_ORGANIZATION ( #51, #252, #2 ) ;
#21 = AXIS2_PLACEMENT_3D ( 'NONE', #216, #320, #123 ) ;
#22 = ORIENTED_EDGE ( 'NONE', *, *, #103, .T. ) ;
#23 = DIRECTION ( 'NONE',  ( -0.4999999999999999445, -0.8660254037844387076, 0.000000000000000000 ) ) ;
#24 = AXIS2_PLACEMENT_3D ( 'NONE', #305, #171, #326 ) ;
#25 = CARTESIAN_POINT ( 'NONE',  ( 0.000000000000000000, 0.000000000000000000, -64.29999999999999716 ) ) ;
#26 = VECTOR ( 'NONE', #213, 1000.000000000000000 ) ;
#27 = COORDINATED_UNIVERSAL_TIME_OFFSET ( 5, 0, .BEHIND. ) ;
#28 = CARTESIAN_POINT ( 'NONE',  ( 8.183940064452819740, 4.724999999243602922, -115.2046354664412178 ) ) ;
#29 = DIRECTION ( 'NONE',  ( 1.000000000000000000, 0.000000000000000000, 0.000000000000000000 ) ) ;
#30 = LINE ( 'NONE', #268, #328 ) ;
#31 = CARTESIAN_POINT ( 'NONE',  ( 0.000000000000000000, 0.000000000000000000, 64.50000000000000000 ) ) ;
#32 = CYLINDRICAL_SURFACE ( 'NONE', #21, 9.449999998487200514 ) ;
#33 = ORIENTED_EDGE ( 'NONE', *, *, #115, .F. ) ;
#34 = ORIENTED_EDGE ( 'NONE', *, *, #76, .T. ) ;
#35 = DIRECTION ( 'NONE',  ( 0.000000000000000000, 0.000000000000000000, 1.000000000000000000 ) ) ;
#36 = PLANE ( 'NONE',  #125 ) ;
#37 = EDGE_CURVE ( 'NONE', #180, #117, #334, .T. ) ;
#38 = EDGE_CURVE ( 'NONE', #74, #194, #199, .T. ) ;
#39 = COORDINATED_UNIVERSAL_TIME_OFFSET ( 5, 0, .BEHIND. ) ;
#40 = CARTESIAN_POINT ( 'NONE',  ( 0.000000000000000000, 0.000000000000000000, -115.2046354664412178 ) ) ;
#41 = PERSON_AND_ORGANIZATION_ROLE ( 'creator' ) ;
#42 = CYLINDRICAL_SURFACE ( 'NONE', #226, 9.449999998487200514 ) ;
#43 = PRODUCT_DEFINITION ( 'UNKNOWN', '', #258, #88 ) ;
#44 = VECTOR ( 'NONE', #144, 1000.000000000000000 ) ;
#45 = ORIENTED_EDGE ( 'NONE', *, *, #162, .T. ) ;
#46 = LINE ( 'NONE', #232, #304 ) ;
#47 = ORIENTED_EDGE ( 'NONE', *, *, #175, .F. ) ;
#48 = CARTESIAN_POINT ( 'NONE',  ( -18.29999999697439250, -9.449999998487198738, -64.29999999999999716 ) ) ;
#49 = LOCAL_TIME ( 14, 53, 45.00000000000000000, #27 ) ;
#50 = AXIS2_PLACEMENT_3D ( 'NONE', #58, #163, #344 ) ;
#51 = PERSON_AND_ORGANIZATION ( #322, #254 ) ;
#52 = ADVANCED_FACE ( 'NONE', ( #308 ), #230, .T. ) ;
#53 = APPROVAL_ROLE ( '' ) ;
#54 = DATE_TIME_ROLE ( 'classification_date' ) ;
#55 = APPROVAL ( #221, 'UNSPECIFIED' ) ;
#56 = DIRECTION ( 'NONE',  ( 0.000000000000000000, -0.000000000000000000, 1.000000000000000000 ) ) ;
#57 = CALENDAR_DATE ( 2023, 2, 1 ) ;
#58 = CARTESIAN_POINT ( 'NONE',  ( 8.183940064452819740, 4.724999999243602922, -115.2046354664412178 ) ) ;
#59 = CARTESIAN_POINT ( 'NONE',  ( -9.149999998487201580, 15.84826488663498445, -64.29999999999999716 ) ) ;
#60 = APPROVAL_STATUS ( 'not_yet_approved' ) ;
#61 = DIRECTION ( 'NONE',  ( -0.000000000000000000, -0.000000000000000000, -1.000000000000000000 ) ) ;
#62 = EDGE_LOOP ( 'NONE', ( #257, #102, #18, #151 ) ) ;
#63 = LOCAL_TIME ( 14, 53, 45.00000000000000000, #39 ) ;
#64 = VECTOR ( 'NONE', #183, 1000.000000000000000 ) ;
#65 = ORIENTED_EDGE ( 'NONE', *, *, #309, .T. ) ;
#66 = EDGE_CURVE ( 'NONE', #206, #117, #237, .T. ) ;
#67 = MECHANICAL_CONTEXT ( 'NONE', #11, 'mechanical' ) ;
#68 = FACE_OUTER_BOUND ( 'NONE', #269, .T. ) ;
#69 = DATE_AND_TIME ( #146, #63 ) ;
#70 = CARTESIAN_POINT ( 'NONE',  ( -26.48394006142721580, 4.724999999243605586, 64.50000000000000000 ) ) ;
#71 = CIRCLE ( 'NONE', #335, 9.449999998487200514 ) ;
#72 = ORIENTED_EDGE ( 'NONE', *, *, #103, .F. ) ;
#73 = DIRECTION ( 'NONE',  ( 1.000000000000000000, 0.000000000000000000, 0.000000000000000000 ) ) ;
#74 = VERTEX_POINT ( 'NONE', #111 ) ;
#75 = CARTESIAN_POINT ( 'NONE',  ( -9.149999998487198027, 15.84826488663498090, 64.50000000000000000 ) ) ;
#76 = EDGE_CURVE ( 'NONE', #218, #245, #160, .T. ) ;
#77 = EDGE_CURVE ( 'NONE', #117, #99, #243, .T. ) ;
#78 = PERSON_AND_ORGANIZATION ( #322, #254 ) ;
#79 = VECTOR ( 'NONE', #202, 1000.000000000000000 ) ;
#80 = PERSON_AND_ORGANIZATION ( #322, #254 ) ;
#81 = CC_DESIGN_PERSON_AND_ORGANIZATION_ASSIGNMENT ( #80, #262, ( #185 ) ) ;
#82 = DIRECTION ( 'NONE',  ( 0.000000000000000000, 0.000000000000000000, 1.000000000000000000 ) ) ;
#83 = CARTESIAN_POINT ( 'NONE',  ( 8.183940064452819740, 4.724999999243602922, 64.50000000000000000 ) ) ;
#84 =( GEOMETRIC_REPRESENTATION_CONTEXT ( 3 ) GLOBAL_UNCERTAINTY_ASSIGNED_CONTEXT ( ( #148 ) ) GLOBAL_UNIT_ASSIGNED_CONTEXT ( ( #224, #301, #143 ) ) REPRESENTATION_CONTEXT ( 'NONE', 'WORKASPACE' ) );
#85 = CARTESIAN_POINT ( 'NONE',  ( -1.735936837513476249E-15, -9.449999998487200514, 64.50000000000000000 ) ) ;
#86 = VECTOR ( 'NONE', #4, 1000.000000000000000 ) ;
#87 = CARTESIAN_POINT ( 'NONE',  ( -9.149999998487198027, 15.84826488663498090, -64.29999999999999716 ) ) ;
#88 = DESIGN_CONTEXT ( 'detailed design', #109, 'design' ) ;
#89 = ORIENTED_EDGE ( 'NONE', *, *, #248, .T. ) ;
#90 = EDGE_LOOP ( 'NONE', ( #89, #204, #339, #22, #270, #128, #298 ) ) ;
#91 = VECTOR ( 'NONE', #273, 1000.000000000000000 ) ;
#92 = CARTESIAN_POINT ( 'NONE',  ( -18.29999999697439250, -9.449999998487198738, -115.2046354664412178 ) ) ;
#93 = LINE ( 'NONE', #249, #91 ) ;
#94 = CARTESIAN_POINT ( 'NONE',  ( -0.9660599340343810626, 20.57326488587859004, -115.2046354664412178 ) ) ;
#95 = FACE_OUTER_BOUND ( 'NONE', #261, .T. ) ;
#96 = CARTESIAN_POINT ( 'NONE',  ( 8.183940064452819740, 4.724999999243602922, -64.29999999999999716 ) ) ;
#97 = CARTESIAN_POINT ( 'NONE',  ( -18.29999999697439250, -9.449999998487198738, 64.50000000000000000 ) ) ;
#98 = EDGE_LOOP ( 'NONE', ( #140, #34, #47, #231 ) ) ;
#99 = VERTEX_POINT ( 'NONE', #211 ) ;
#100 = ORIENTED_EDGE ( 'NONE', *, *, #77, .F. ) ;
#101 = DIRECTION ( 'NONE',  ( 0.000000000000000000, 0.000000000000000000, 1.000000000000000000 ) ) ;
#102 = ORIENTED_EDGE ( 'NONE', *, *, #190, .T. ) ;
#103 = EDGE_CURVE ( 'NONE', #99, #207, #313, .T. ) ;
#104 = ADVANCED_FACE ( 'NONE', ( #108 ), #267, .F. ) ;
#105 = SHAPE_DEFINITION_REPRESENTATION ( #279, #289 ) ;
#106 = VECTOR ( 'NONE', #311, 1000.000000000000000 ) ;
#107 = APPROVAL ( #318, 'UNSPECIFIED' ) ;
#108 = FACE_OUTER_BOUND ( 'NONE', #260, .T. ) ;
#109 = APPLICATION_CONTEXT ( 'configuration controlled 3d designs of mechanical parts and assemblies' ) ;
#110 = DIRECTION ( 'NONE',  ( 0.000000000000000000, 0.000000000000000000, 1.000000000000000000 ) ) ;
#111 = CARTESIAN_POINT ( 'NONE',  ( -0.9660599340343810626, 20.57326488587859004, 64.50000000000000000 ) ) ;
#112 = PERSON_AND_ORGANIZATION ( #322, #254 ) ;
#113 = FACE_OUTER_BOUND ( 'NONE', #62, .T. ) ;
#114 = MANIFOLD_SOLID_BREP ( 'Boss-Extrude2', #10 ) ;
#115 = EDGE_CURVE ( 'NONE', #280, #255, #342, .T. ) ;
#116 = ORIENTED_EDGE ( 'NONE', *, *, #13, .F. ) ;
#117 = VERTEX_POINT ( 'NONE', #85 ) ;
#118 = APPLICATION_PROTOCOL_DEFINITION ( 'international standard', 'config_control_design', 1994, #11 ) ;
#119 = CC_DESIGN_DATE_AND_TIME_ASSIGNMENT ( #314, #54, ( #185 ) ) ;
#120 = PERSON_AND_ORGANIZATION ( #322, #254 ) ;
#121 = PLANE ( 'NONE',  #178 ) ;
#122 = CARTESIAN_POINT ( 'NONE',  ( -18.29999999697439605, 1.734723475976807094E-15, -64.29999999999999716 ) ) ;
#123 = DIRECTION ( 'NONE',  ( 1.000000000000000000, 0.000000000000000000, 0.000000000000000000 ) ) ;
#124 = EDGE_CURVE ( 'NONE', #255, #180, #71, .T. ) ;
#125 = AXIS2_PLACEMENT_3D ( 'NONE', #92, #272, #250 ) ;
#126 = ORIENTED_EDGE ( 'NONE', *, *, #37, .F. ) ;
#127 = ORIENTED_EDGE ( 'NONE', *, *, #283, .T. ) ;
#128 = ORIENTED_EDGE ( 'NONE', *, *, #38, .T. ) ;
#129 = ORIENTED_EDGE ( 'NONE', *, *, #37, .T. ) ;
#130 = CARTESIAN_POINT ( 'NONE',  ( -17.33394006294001244, 20.57326488587859359, -115.2046354664412178 ) ) ;
#131 = DATE_AND_TIME ( #57, #312 ) ;
#132 = AXIS2_PLACEMENT_3D ( 'NONE', #317, #264, #29 ) ;
#133 = CARTESIAN_POINT ( 'NONE',  ( -26.48394006142721580, 4.724999999243605586, -115.2046354664412178 ) ) ;
#134 = PERSON_AND_ORGANIZATION_ROLE ( 'creator' ) ;
#135 = LINE ( 'NONE', #83, #86 ) ;
#136 = DIRECTION ( 'NONE',  ( 1.000000000000000000, 0.000000000000000000, 0.000000000000000000 ) ) ;
#137 = DIRECTION ( 'NONE',  ( 0.000000000000000000, 0.000000000000000000, 1.000000000000000000 ) ) ;
#138 = EDGE_CURVE ( 'NONE', #207, #74, #135, .T. ) ;
#139 = EDGE_CURVE ( 'NONE', #164, #229, #6, .T. ) ;
#140 = ORIENTED_EDGE ( 'NONE', *, *, #222, .F. ) ;
#141 = VECTOR ( 'NONE', #110, 1000.000000000000000 ) ;
#142 = ORIENTED_EDGE ( 'NONE', *, *, #76, .F. ) ;
#143 =( NAMED_UNIT ( * ) SI_UNIT ( $, .STERADIAN. ) SOLID_ANGLE_UNIT ( ) );
#144 = DIRECTION ( 'NONE',  ( 0.4999999999999999445, -0.8660254037844387076, 0.000000000000000000 ) ) ;
#145 = AXIS2_PLACEMENT_3D ( 'NONE', #59, #56, #158 ) ;
#146 = CALENDAR_DATE ( 2023, 2, 1 ) ;
#147 = CARTESIAN_POINT ( 'NONE',  ( 8.183940064452819740, 4.724999999243602922, 64.50000000000000000 ) ) ;
#148 = UNCERTAINTY_MEASURE_WITH_UNIT (LENGTH_MEASURE( 1.000000000000000082E-05 ), #224, 'distance_accuracy_value', 'NONE');
#149 = LINE ( 'NONE', #306, #79 ) ;
#150 = APPROVAL_PERSON_ORGANIZATION ( #327, #55, #9 ) ;
#151 = ORIENTED_EDGE ( 'NONE', *, *, #309, .F. ) ;
#152 = LINE ( 'NONE', #48, #64 ) ;
#153 = ORIENTED_EDGE ( 'NONE', *, *, #66, .F. ) ;
#154 = LINE ( 'NONE', #173, #44 ) ;
#155 = SECURITY_CLASSIFICATION_LEVEL ( 'unclassified' ) ;
#156 = COORDINATED_UNIVERSAL_TIME_OFFSET ( 5, 0, .BEHIND. ) ;
#157 = CC_DESIGN_APPROVAL ( #55, ( #43 ) ) ;
#158 = DIRECTION ( 'NONE',  ( 0.8813748358920590054, 0.4724176104425470424, 0.000000000000000000 ) ) ;
#159 = LINE ( 'NONE', #28, #141 ) ;
#160 = LINE ( 'NONE', #133, #228 ) ;
#161 = ADVANCED_FACE ( 'NONE', ( #292 ), #239, .T. ) ;
#162 = EDGE_CURVE ( 'NONE', #280, #207, #159, .T. ) ;
#163 = DIRECTION ( 'NONE',  ( 0.8660254037844387076, 0.4999999999999999445, -0.000000000000000000 ) ) ;
#164 = VERTEX_POINT ( 'NONE', #192 ) ;
#165 = LOCAL_TIME ( 14, 53, 45.00000000000000000, #156 ) ;
#166 = ORIENTED_EDGE ( 'NONE', *, *, #222, .T. ) ;
#167 = AXIS2_PLACEMENT_3D ( 'NONE', #337, #285, #136 ) ;
#168 = COORDINATED_UNIVERSAL_TIME_OFFSET ( 5, 0, .BEHIND. ) ;
#169 = ORIENTED_EDGE ( 'NONE', *, *, #124, .T. ) ;
#170 = CARTESIAN_POINT ( 'NONE',  ( -18.29999999697439250, -9.449999998487198738, -64.29999999999999716 ) ) ;
#171 = DIRECTION ( 'NONE',  ( 0.000000000000000000, 0.000000000000000000, 1.000000000000000000 ) ) ;
#172 = CIRCLE ( 'NONE', #235, 9.449999998487200514 ) ;
#173 = CARTESIAN_POINT ( 'NONE',  ( 8.183940064452819740, 4.724999999243602922, -64.29999999999999716 ) ) ;
#174 = CARTESIAN_POINT ( 'NONE',  ( -18.29999999697439605, 1.734723475976807094E-15, 64.50000000000000000 ) ) ;
#175 = EDGE_CURVE ( 'NONE', #194, #245, #316, .T. ) ;
#176 = APPROVAL_DATE_TIME ( #69, #55 ) ;
#177 = DIRECTION ( 'NONE',  ( 1.000000000000000000, 0.000000000000000000, 0.000000000000000000 ) ) ;
#178 = AXIS2_PLACEMENT_3D ( 'NONE', #219, #200, #195 ) ;
#179 = CC_DESIGN_PERSON_AND_ORGANIZATION_ASSIGNMENT ( #78, #234, ( #258 ) ) ;
#180 = VERTEX_POINT ( 'NONE', #189 ) ;
#181 = PLANE ( 'NONE',  #247 ) ;
#182 = ORIENTED_EDGE ( 'NONE', *, *, #115, .T. ) ;
#183 = DIRECTION ( 'NONE',  ( -1.000000000000000000, 9.479363258271122261E-17, 0.000000000000000000 ) ) ;
#184 = DATE_AND_TIME ( #341, #49 ) ;
#185 = SECURITY_CLASSIFICATION ( '', '', #155 ) ;
#186 = VECTOR ( 'NONE', #266, 1000.000000000000000 ) ;
#187 = PERSON_AND_ORGANIZATION ( #322, #254 ) ;
#188 = CARTESIAN_POINT ( 'NONE',  ( 0.000000000000000000, 0.000000000000000000, 64.50000000000000000 ) ) ;
#189 = CARTESIAN_POINT ( 'NONE',  ( -1.735936837513476249E-15, -9.449999998487200514, -64.29999999999999716 ) ) ;
#190 = EDGE_CURVE ( 'NONE', #164, #194, #30, .T. ) ;
#191 = DIRECTION ( 'NONE',  ( -0.000000000000000000, -0.000000000000000000, -1.000000000000000000 ) ) ;
#192 = CARTESIAN_POINT ( 'NONE',  ( -17.33394006294001244, 20.57326488587859359, -64.29999999999999716 ) ) ;
#193 = ORIENTED_EDGE ( 'NONE', *, *, #248, .F. ) ;
#194 = VERTEX_POINT ( 'NONE', #241 ) ;
#195 = DIRECTION ( 'NONE',  ( 1.000000000000000000, 0.000000000000000000, -0.000000000000000000 ) ) ;
#196 = DIRECTION ( 'NONE',  ( 1.000000000000000000, 0.000000000000000000, 0.000000000000000000 ) ) ;
#197 = ADVANCED_FACE ( 'NONE', ( #113 ), #32, .T. ) ;
#198 = CC_DESIGN_APPROVAL ( #107, ( #185 ) ) ;
#199 = CIRCLE ( 'NONE', #278, 9.449999998487200514 ) ;
#200 = DIRECTION ( 'NONE',  ( 0.000000000000000000, 0.000000000000000000, 1.000000000000000000 ) ) ;
#201 = CARTESIAN_POINT ( 'NONE',  ( 9.449999998487200514, 0.000000000000000000, -64.29999999999999716 ) ) ;
#202 = DIRECTION ( 'NONE',  ( 0.4999999999999999445, 0.8660254037844387076, -0.000000000000000000 ) ) ;
#203 = PRODUCT_RELATED_PRODUCT_CATEGORY ( 'detail', '', ( #331 ) ) ;
#204 = ORIENTED_EDGE ( 'NONE', *, *, #66, .T. ) ;
#205 = ORIENTED_EDGE ( 'NONE', *, *, #13, .T. ) ;
#206 = VERTEX_POINT ( 'NONE', #97 ) ;
#207 = VERTEX_POINT ( 'NONE', #147 ) ;
#208 = DIRECTION ( 'NONE',  ( 0.000000000000000000, 0.000000000000000000, 1.000000000000000000 ) ) ;
#209 = AXIS2_PLACEMENT_3D ( 'NONE', #122, #274, #225 ) ;
#210 = CALENDAR_DATE ( 2023, 2, 1 ) ;
#211 = CARTESIAN_POINT ( 'NONE',  ( 9.449999998487200514, 0.000000000000000000, 64.50000000000000000 ) ) ;
#212 = DIRECTION ( 'NONE',  ( 1.000000000000000000, -1.835686218258740171E-15, 0.000000000000000000 ) ) ;
#213 = DIRECTION ( 'NONE',  ( 1.000000000000000000, -9.479363258271122261E-17, 0.000000000000000000 ) ) ;
#214 = DATE_AND_TIME ( #210, #165 ) ;
#215 = LOCAL_TIME ( 14, 53, 45.00000000000000000, #238 ) ;
#216 = CARTESIAN_POINT ( 'NONE',  ( -9.149999998487198027, 15.84826488663498090, -115.2046354664412178 ) ) ;
#217 = ORIENTED_EDGE ( 'NONE', *, *, #139, .T. ) ;
#218 = VERTEX_POINT ( 'NONE', #251 ) ;
#219 = CARTESIAN_POINT ( 'NONE',  ( 0.000000000000000000, 0.000000000000000000, 64.50000000000000000 ) ) ;
#220 = AXIS2_PLACEMENT_3D ( 'NONE', #188, #240, #343 ) ;
#221 = APPROVAL_STATUS ( 'not_yet_approved' ) ;
#222 = EDGE_CURVE ( 'NONE', #218, #164, #149, .T. ) ;
#223 = ADVANCED_FACE ( 'NONE', ( #68 ), #42, .T. ) ;
#224 =( LENGTH_UNIT ( ) NAMED_UNIT ( * ) SI_UNIT ( .MILLI., .METRE. ) );
#225 = DIRECTION ( 'NONE',  ( 1.000000000000000000, 8.881784197001250351E-16, 0.000000000000000000 ) ) ;
#226 = AXIS2_PLACEMENT_3D ( 'NONE', #253, #227, #177 ) ;
#227 = DIRECTION ( 'NONE',  ( 0.000000000000000000, 0.000000000000000000, 1.000000000000000000 ) ) ;
#228 = VECTOR ( 'NONE', #315, 1000.000000000000000 ) ;
#229 = VERTEX_POINT ( 'NONE', #17 ) ;
#230 = CYLINDRICAL_SURFACE ( 'NONE', #167, 9.449999998487200514 ) ;
#231 = ORIENTED_EDGE ( 'NONE', *, *, #190, .F. ) ;
#232 = CARTESIAN_POINT ( 'NONE',  ( -18.29999999697439250, -9.449999998487198738, -115.2046354664412178 ) ) ;
#233 = ADVANCED_FACE ( 'NONE', ( #330 ), #276, .T. ) ;
#234 = PERSON_AND_ORGANIZATION_ROLE ( 'design_supplier' ) ;
#235 = AXIS2_PLACEMENT_3D ( 'NONE', #174, #329, #303 ) ;
#236 = CC_DESIGN_DATE_AND_TIME_ASSIGNMENT ( #131, #265, ( #43 ) ) ;
#237 = LINE ( 'NONE', #1, #26 ) ;
#238 = COORDINATED_UNIVERSAL_TIME_OFFSET ( 5, 0, .BEHIND. ) ;
#239 = PLANE ( 'NONE',  #50 ) ;
#240 = DIRECTION ( 'NONE',  ( 0.000000000000000000, 0.000000000000000000, 1.000000000000000000 ) ) ;
#241 = CARTESIAN_POINT ( 'NONE',  ( -17.33394006294001244, 20.57326488587859359, 64.50000000000000000 ) ) ;
#242 = CC_DESIGN_SECURITY_CLASSIFICATION ( #185, ( #258 ) ) ;
#243 = CIRCLE ( 'NONE', #291, 9.449999998487200514 ) ;
#244 = ORIENTED_EDGE ( 'NONE', *, *, #296, .T. ) ;
#245 = VERTEX_POINT ( 'NONE', #70 ) ;
#246 = APPLICATION_PROTOCOL_DEFINITION ( 'international standard', 'config_control_design', 1994, #109 ) ;
#247 = AXIS2_PLACEMENT_3D ( 'NONE', #130, #340, #23 ) ;
#248 = EDGE_CURVE ( 'NONE', #245, #206, #172, .T. ) ;
#249 = CARTESIAN_POINT ( 'NONE',  ( 9.449999998487200514, 0.000000000000000000, -115.2046354664412178 ) ) ;
#250 = DIRECTION ( 'NONE',  ( 1.000000000000000000, -9.479363258271122261E-17, 0.000000000000000000 ) ) ;
#251 = CARTESIAN_POINT ( 'NONE',  ( -26.48394006142721580, 4.724999999243604698, -64.29999999999999716 ) ) ;
#252 = APPROVAL ( #60, 'UNSPECIFIED' ) ;
#253 = CARTESIAN_POINT ( 'NONE',  ( 0.000000000000000000, 0.000000000000000000, -115.2046354664412178 ) ) ;
#254 = ORGANIZATION ( 'UNSPECIFIED', 'UNSPECIFIED', '' ) ;
#255 = VERTEX_POINT ( 'NONE', #201 ) ;
#256 = FACE_OUTER_BOUND ( 'NONE', #98, .T. ) ;
#257 = ORIENTED_EDGE ( 'NONE', *, *, #139, .F. ) ;
#258 = PRODUCT_DEFINITION_FORMATION_WITH_SPECIFIED_SOURCE ( 'ANY', '', #331, .NOT_KNOWN. ) ;
#259 = EDGE_CURVE ( 'NONE', #307, #218, #299, .T. ) ;
#260 = EDGE_LOOP ( 'NONE', ( #282, #166, #217, #127, #182, #169, #333 ) ) ;
#261 = EDGE_LOOP ( 'NONE', ( #281, #129, #153, #116 ) ) ;
#262 = PERSON_AND_ORGANIZATION_ROLE ( 'classification_officer' ) ;
#263 = CC_DESIGN_PERSON_AND_ORGANIZATION_ASSIGNMENT ( #187, #134, ( #258 ) ) ;
#264 = DIRECTION ( 'NONE',  ( -0.000000000000000000, -0.000000000000000000, -1.000000000000000000 ) ) ;
#265 = DATE_TIME_ROLE ( 'creation_date' ) ;
#266 = DIRECTION ( 'NONE',  ( -0.4999999999999998890, -0.8660254037844387076, 0.000000000000000000 ) ) ;
#267 = PLANE ( 'NONE',  #145 ) ;
#268 = CARTESIAN_POINT ( 'NONE',  ( -17.33394006294001244, 20.57326488587859359, -115.2046354664412178 ) ) ;
#269 = EDGE_LOOP ( 'NONE', ( #7, #244, #100, #126 ) ) ;
#270 = ORIENTED_EDGE ( 'NONE', *, *, #138, .T. ) ;
#271 = PERSON_AND_ORGANIZATION_ROLE ( 'design_owner' ) ;
#272 = DIRECTION ( 'NONE',  ( -9.479363258271122261E-17, -1.000000000000000000, 0.000000000000000000 ) ) ;
#273 = DIRECTION ( 'NONE',  ( 0.000000000000000000, 0.000000000000000000, 1.000000000000000000 ) ) ;
#274 = DIRECTION ( 'NONE',  ( -0.000000000000000000, -0.000000000000000000, -1.000000000000000000 ) ) ;
#275 = PERSON_AND_ORGANIZATION ( #322, #254 ) ;
#276 = CYLINDRICAL_SURFACE ( 'NONE', #16, 9.449999998487200514 ) ;
#277 = VECTOR ( 'NONE', #35, 1000.000000000000000 ) ;
#278 = AXIS2_PLACEMENT_3D ( 'NONE', #75, #101, #73 ) ;
#279 = PRODUCT_DEFINITION_SHAPE ( 'NONE', 'NONE',  #43 ) ;
#280 = VERTEX_POINT ( 'NONE', #96 ) ;
#281 = ORIENTED_EDGE ( 'NONE', *, *, #14, .F. ) ;
#282 = ORIENTED_EDGE ( 'NONE', *, *, #259, .T. ) ;
#283 = EDGE_CURVE ( 'NONE', #229, #280, #154, .T. ) ;
#284 = ORIENTED_EDGE ( 'NONE', *, *, #138, .F. ) ;
#285 = DIRECTION ( 'NONE',  ( 0.000000000000000000, 0.000000000000000000, 1.000000000000000000 ) ) ;
#286 = AXIS2_PLACEMENT_3D ( 'NONE', #87, #61, #212 ) ;
#287 = APPROVAL_DATE_TIME ( #184, #107 ) ;
#288 = CALENDAR_DATE ( 2023, 2, 1 ) ;
#289 = ADVANCED_BREP_SHAPE_REPRESENTATION ( 'Triangular Battery', ( #114, #24 ), #84 ) ;
#290 = DIRECTION ( 'NONE',  ( 1.000000000000000000, 0.000000000000000000, 0.000000000000000000 ) ) ;
#291 = AXIS2_PLACEMENT_3D ( 'NONE', #31, #82, #290 ) ;
#292 = FACE_OUTER_BOUND ( 'NONE', #310, .T. ) ;
#293 = DIRECTION ( 'NONE',  ( 1.000000000000000000, 0.000000000000000000, 0.000000000000000000 ) ) ;
#294 = APPROVAL_DATE_TIME ( #214, #252 ) ;
#295 = CARTESIAN_POINT ( 'NONE',  ( -17.33394006294001244, 20.57326488587859359, 64.50000000000000000 ) ) ;
#296 = EDGE_CURVE ( 'NONE', #255, #99, #93, .T. ) ;
#297 = ADVANCED_FACE ( 'NONE', ( #95 ), #36, .T. ) ;
#298 = ORIENTED_EDGE ( 'NONE', *, *, #175, .T. ) ;
#299 = CIRCLE ( 'NONE', #209, 9.449999998487200514 ) ;
#300 = EDGE_LOOP ( 'NONE', ( #8, #205, #193, #142 ) ) ;
#301 =( NAMED_UNIT ( * ) PLANE_ANGLE_UNIT ( ) SI_UNIT ( $, .RADIAN. ) );
#302 = FACE_OUTER_BOUND ( 'NONE', #90, .T. ) ;
#303 = DIRECTION ( 'NONE',  ( 1.000000000000000000, 0.000000000000000000, 0.000000000000000000 ) ) ;
#304 = VECTOR ( 'NONE', #208, 1000.000000000000000 ) ;
#305 = CARTESIAN_POINT ( 'NONE',  ( 0.000000000000000000, 0.000000000000000000, 0.000000000000000000 ) ) ;
#306 = CARTESIAN_POINT ( 'NONE',  ( -17.33394006294001244, 20.57326488587859359, -64.29999999999999716 ) ) ;
#307 = VERTEX_POINT ( 'NONE', #170 ) ;
#308 = FACE_OUTER_BOUND ( 'NONE', #300, .T. ) ;
#309 = EDGE_CURVE ( 'NONE', #229, #74, #12, .T. ) ;
#310 = EDGE_LOOP ( 'NONE', ( #324, #65, #284, #338 ) ) ;
#311 = DIRECTION ( 'NONE',  ( 0.000000000000000000, 0.000000000000000000, 1.000000000000000000 ) ) ;
#312 = LOCAL_TIME ( 14, 53, 45.00000000000000000, #168 ) ;
#313 = CIRCLE ( 'NONE', #220, 9.449999998487200514 ) ;
#314 = DATE_AND_TIME ( #288, #215 ) ;
#315 = DIRECTION ( 'NONE',  ( 0.000000000000000000, 0.000000000000000000, 1.000000000000000000 ) ) ;
#316 = LINE ( 'NONE', #295, #186 ) ;
#317 = CARTESIAN_POINT ( 'NONE',  ( 0.000000000000000000, 0.000000000000000000, -64.29999999999999716 ) ) ;
#318 = APPROVAL_STATUS ( 'not_yet_approved' ) ;
#319 = CC_DESIGN_APPROVAL ( #252, ( #258 ) ) ;
#320 = DIRECTION ( 'NONE',  ( 0.000000000000000000, 0.000000000000000000, 1.000000000000000000 ) ) ;
#321 = ADVANCED_FACE ( 'NONE', ( #302 ), #121, .T. ) ;
#322 = PERSON ( 'UNSPECIFIED', 'UNSPECIFIED', 'UNSPECIFIED', ('UNSPECIFIED'), ('UNSPECIFIED'), ('UNSPECIFIED') ) ;
#323 = EDGE_LOOP ( 'NONE', ( #336, #33, #45, #72 ) ) ;
#324 = ORIENTED_EDGE ( 'NONE', *, *, #283, .F. ) ;
#325 = CC_DESIGN_PERSON_AND_ORGANIZATION_ASSIGNMENT ( #120, #271, ( #331 ) ) ;
#326 = DIRECTION ( 'NONE',  ( 1.000000000000000000, 0.000000000000000000, 0.000000000000000000 ) ) ;
#327 = PERSON_AND_ORGANIZATION ( #322, #254 ) ;
#328 = VECTOR ( 'NONE', #137, 1000.000000000000000 ) ;
#329 = DIRECTION ( 'NONE',  ( 0.000000000000000000, 0.000000000000000000, 1.000000000000000000 ) ) ;
#330 = FACE_OUTER_BOUND ( 'NONE', #323, .T. ) ;
#331 = PRODUCT ( 'Triangular Battery', 'Triangular Battery', '', ( #67 ) ) ;
#332 = CC_DESIGN_PERSON_AND_ORGANIZATION_ASSIGNMENT ( #275, #41, ( #43 ) ) ;
#333 = ORIENTED_EDGE ( 'NONE', *, *, #14, .T. ) ;
#334 = LINE ( 'NONE', #19, #106 ) ;
#335 = AXIS2_PLACEMENT_3D ( 'NONE', #25, #191, #293 ) ;
#336 = ORIENTED_EDGE ( 'NONE', *, *, #296, .F. ) ;
#337 = CARTESIAN_POINT ( 'NONE',  ( -18.29999999697439605, 1.734723475976807094E-15, -115.2046354664412178 ) ) ;
#338 = ORIENTED_EDGE ( 'NONE', *, *, #162, .F. ) ;
#339 = ORIENTED_EDGE ( 'NONE', *, *, #77, .T. ) ;
#340 = DIRECTION ( 'NONE',  ( -0.8660254037844387076, 0.4999999999999999445, 0.000000000000000000 ) ) ;
#341 = CALENDAR_DATE ( 2023, 2, 1 ) ;
#342 = CIRCLE ( 'NONE', #132, 9.449999998487200514 ) ;
#343 = DIRECTION ( 'NONE',  ( 1.000000000000000000, 0.000000000000000000, 0.000000000000000000 ) ) ;
#344 = DIRECTION ( 'NONE',  ( -0.4999999999999999445, 0.8660254037844387076, 0.000000000000000000 ) ) ;
ENDSEC;
END-ISO-10303-21;
